  0
SECTION
  2
HEADER
  9
$ACADVER
  1
AC1015
  9
$ACADMAINTVER
 70
     6
  9
$DWGCODEPAGE
  3
ANSI_1254
  9
$INSBASE
 10
0.0
 20
0.0
 30
0.0
  9
$EXTMIN
 10
0.0
 20
0.0
 30
0.0
  9
$EXTMAX
 10
279.4
 20
215.9
 30
0.0
  9
$LIMMIN
 10
0.0
 20
0.0
  9
$LIMMAX
 10
279.4
 20
215.9
  9
$ORTHOMODE
 70
     0
  9
$REGENMODE
 70
     1
  9
$FILLMODE
 70
     1
  9
$QTEXTMODE
 70
     0
  9
$MIRRTEXT
 70
     1
  9
$LTSCALE
 40
1.0
  9
$ATTMODE
 70
     1
  9
$TEXTSIZE
 40
3.5
  9
$TRACEWID
 40
1.0
  9
$TEXTSTYLE
  7
Standard
  9
$CLAYER
  8
0
  9
$CELTYPE
  6
ByLayer
  9
$CECOLOR
 62
   256
  9
$CELTSCALE
 40
1.0
  9
$DISPSILH
 70
     0
  9
$DIMSCALE
 40
1.0
  9
$DIMASZ
 40
3.5
  9
$DIMEXO
 40
1.0
  9
$DIMDLI
 40
3.75
  9
$DIMRND
 40
0.0
  9
$DIMDLE
 40
0.0
  9
$DIMEXE
 40
1.0
  9
$DIMTP
 40
0.0
  9
$DIMTM
 40
0.0
  9
$DIMTXT
 40
3.5
  9
$DIMCEN
 40
2.5
  9
$DIMTSZ
 40
0.0
  9
$DIMTOL
 70
     0
  9
$DIMLIM
 70
     0
  9
$DIMTIH
 70
     1
  9
$DIMTOH
 70
     1
  9
$DIMSE1
 70
     0
  9
$DIMSE2
 70
     0
  9
$DIMTAD
 70
     1
  9
$DIMZIN
 70
     0
  9
$DIMBLK
  1

  9
$DIMASO
 70
     1
  9
$DIMSHO
 70
     1
  9
$DIMPOST
  1

  9
$DIMAPOST
  1

  9
$DIMALT
 70
     0
  9
$DIMALTD
 70
     3
  9
$DIMALTF
 40
0.0393700787
  9
$DIMLFAC
 40
1.0
  9
$DIMTOFL
 70
     1
  9
$DIMTVP
 40
0.0
  9
$DIMTIX
 70
     0
  9
$DIMSOXD
 70
     0
  9
$DIMSAH
 70
     0
  9
$DIMBLK1
  1

  9
$DIMBLK2
  1

  9
$DIMSTYLE
  2
ISO-25
  9
$DIMCLRD
 70
     0
  9
$DIMCLRE
 70
     0
  9
$DIMCLRT
 70
     0
  9
$DIMTFAC
 40
1.0
  9
$DIMGAP
 40
1.524
  9
$DIMJUST
 70
     0
  9
$DIMSD1
 70
     0
  9
$DIMSD2
 70
     0
  9
$DIMTOLJ
 70
     0
  9
$DIMTZIN
 70
     0
  9
$DIMALTZ
 70
     0
  9
$DIMALTTZ
 70
     0
  9
$DIMUPT
 70
     0
  9
$DIMDEC
 70
     2
  9
$DIMTDEC
 70
     2
  9
$DIMALTU
 70
     2
  9
$DIMALTTD
 70
     3
  9
$DIMTXSTY
  7
Standard
  9
$DIMAUNIT
 70
     0
  9
$DIMADEC
 70
     2
  9
$DIMALTRND
 40
0.0
  9
$DIMAZIN
 70
     0
  9
$DIMDSEP
 70
    44
  9
$DIMATFIT
 70
     3
  9
$DIMFRAC
 70
     0
  9
$DIMLDRBLK
  1

  9
$DIMLUNIT
 70
     2
  9
$DIMLWD
 70
    -2
  9
$DIMLWE
 70
    -2
  9
$DIMTMOVE
 70
     0
  9
$LUNITS
 70
     2
  9
$LUPREC
 70
     2
  9
$SKETCHINC
 40
1.0
  9
$FILLETRAD
 40
10.0
  9
$AUNITS
 70
     0
  9
$AUPREC
 70
     2
  9
$MENU
  1
.
  9
$ELEVATION
 40
0.0
  9
$PELEVATION
 40
0.0
  9
$THICKNESS
 40
0.0
  9
$LIMCHECK
 70
     0
  9
$CHAMFERA
 40
0.0
  9
$CHAMFERB
 40
0.0
  9
$CHAMFERC
 40
0.0
  9
$CHAMFERD
 40
0.0
  9
$SKPOLY
 70
     0
  9
$TDCREATE
 40
2459935.699430417
  9
$TDUCREATE
 40
2459935.574430417
  9
$TDUPDATE
 40
2459935.69943059
  9
$TDUUPDATE
 40
2459935.57443059
  9
$TDINDWG
 40
0.0000000116
  9
$TDUSRTIMER
 40
0.0000000116
  9
$USRTIMER
 70
     1
  9
$ANGBASE
 50
0.0
  9
$ANGDIR
 70
     0
  9
$PDMODE
 70
     0
  9
$PDSIZE
 40
-1.0
  9
$PLINEWID
 40
0.0
  9
$SPLFRAME
 70
     0
  9
$SPLINETYPE
 70
     6
  9
$SPLINESEGS
 70
     8
  9
$HANDSEED
  5
ED
  9
$SURFTAB1
 70
     6
  9
$SURFTAB2
 70
     6
  9
$SURFTYPE
 70
     6
  9
$SURFU
 70
     6
  9
$SURFV
 70
     6
  9
$UCSBASE
  2

  9
$UCSNAME
  2

  9
$UCSORG
 10
0.0
 20
0.0
 30
0.0
  9
$UCSXDIR
 10
1.0
 20
0.0
 30
0.0
  9
$UCSYDIR
 10
0.0
 20
1.0
 30
0.0
  9
$UCSORTHOREF
  2

  9
$UCSORTHOVIEW
 70
     0
  9
$UCSORGTOP
 10
0.0
 20
0.0
 30
0.0
  9
$UCSORGBOTTOM
 10
0.0
 20
0.0
 30
0.0
  9
$UCSORGLEFT
 10
0.0
 20
0.0
 30
0.0
  9
$UCSORGRIGHT
 10
0.0
 20
0.0
 30
0.0
  9
$UCSORGFRONT
 10
0.0
 20
0.0
 30
0.0
  9
$UCSORGBACK
 10
0.0
 20
0.0
 30
0.0
  9
$PUCSBASE
  2

  9
$PUCSNAME
  2

  9
$PUCSORG
 10
0.0
 20
0.0
 30
0.0
  9
$PUCSXDIR
 10
1.0
 20
0.0
 30
0.0
  9
$PUCSYDIR
 10
0.0
 20
1.0
 30
0.0
  9
$PUCSORTHOREF
  2

  9
$PUCSORTHOVIEW
 70
     0
  9
$PUCSORGTOP
 10
0.0
 20
0.0
 30
0.0
  9
$PUCSORGBOTTOM
 10
0.0
 20
0.0
 30
0.0
  9
$PUCSORGLEFT
 10
0.0
 20
0.0
 30
0.0
  9
$PUCSORGRIGHT
 10
0.0
 20
0.0
 30
0.0
  9
$PUCSORGFRONT
 10
0.0
 20
0.0
 30
0.0
  9
$PUCSORGBACK
 10
0.0
 20
0.0
 30
0.0
  9
$USERI1
 70
     0
  9
$USERI2
 70
     0
  9
$USERI3
 70
     0
  9
$USERI4
 70
     0
  9
$USERI5
 70
     0
  9
$USERR1
 40
0.0
  9
$USERR2
 40
0.0
  9
$USERR3
 40
0.0
  9
$USERR4
 40
0.0
  9
$USERR5
 40
0.0
  9
$WORLDVIEW
 70
     1
  9
$SHADEDGE
 70
     3
  9
$SHADEDIF
 70
    70
  9
$TILEMODE
 70
     1
  9
$MAXACTVP
 70
    64
  9
$PINSBASE
 10
0.0
 20
0.0
 30
0.0
  9
$PLIMCHECK
 70
     0
  9
$PEXTMIN
 10
1.0000000000E+20
 20
1.0000000000E+20
 30
1.0000000000E+20
  9
$PEXTMAX
 10
-1.0000000000E+20
 20
-1.0000000000E+20
 30
-1.0000000000E+20
  9
$PLIMMIN
 10
0.0
 20
0.0
  9
$PLIMMAX
 10
420.0
 20
297.0
  9
$UNITMODE
 70
     0
  9
$VISRETAIN
 70
     1
  9
$PLINEGEN
 70
     0
  9
$PSLTSCALE
 70
     1
  9
$TREEDEPTH
 70
  3020
  9
$CMLSTYLE
  2
Standard
  9
$CMLJUST
 70
     0
  9
$CMLSCALE
 40
20.0
  9
$PROXYGRAPHICS
 70
     1
  9
$MEASUREMENT
 70
     1
  9
$CELWEIGHT
370
    -1
  9
$ENDCAPS
280
     0
  9
$JOINSTYLE
280
     0
  9
$LWDISPLAY
290
     1
  9
$INSUNITS
 70
     4
  9
$HYPERLINKBASE
  1

  9
$STYLESHEET
  1

  9
$XEDIT
290
     1
  9
$CEPSNTYPE
380
     0
  9
$PSTYLEMODE
290
     1
  9
$FINGERPRINTGUID
  2
{17de5b27-dbeb-421d-bb64-761f06fa73ba}
  9
$VERSIONGUID
  2
{FAEB1C32-E019-11D5-929B-00C0DF256EC4}
  9
$EXTNAMES
290
     1
  9
$PSVPSCALE
 40
0.0
  9
$OLESTARTUP
290
     0
  0
ENDSEC
  0
SECTION
  2
CLASSES
  0
CLASS
  1
ACDBDICTIONARYWDFLT
  2
AcDbDictionaryWithDefault
  3
ObjectDBX Classes
 90
        0
280
     0
281
     0
  0
CLASS
  1
VISUALSTYLE
  2
AcDbVisualStyle
  3
ObjectDBX Classes
 90
     4095
280
     0
281
     0
  0
CLASS
  1
MATERIAL
  2
AcDbMaterial
  3
ObjectDBX Classes
 90
     1153
280
     0
281
     0
  0
CLASS
  1
SCALE
  2
AcDbScale
  3
ObjectDBX Classes
 90
     1153
280
     0
281
     0
  0
CLASS
  1
TABLESTYLE
  2
AcDbTableStyle
  3
ObjectDBX Classes
 90
     4095
280
     0
281
     0
  0
CLASS
  1
MLEADERSTYLE
  2
AcDbMLeaderStyle
  3
ACDB_MLEADERSTYLE_CLASS
 90
     4095
280
     0
281
     0
  0
CLASS
  1
SUN
  2
AcDbSun
  3
SCENEOE
 90
     1153
280
     0
281
     0
  0
CLASS
  1
ACDBPLACEHOLDER
  2
AcDbPlaceHolder
  3
ObjectDBX Classes
 90
        0
280
     0
281
     0
  0
CLASS
  1
LAYOUT
  2
AcDbLayout
  3
ObjectDBX Classes
 90
        0
280
     0
281
     0
  0
ENDSEC
  0
SECTION
  2
TABLES
  0
TABLE
  2
VPORT
  5
8
330
0
100
AcDbSymbolTable
 70
     1
  0
VPORT
  5
29
330
8
100
AcDbSymbolTableRecord
100
AcDbViewportTableRecord
  2
*Active
 70
     0
 10
0.0
 20
0.0
 11
1.0
 21
1.0
 12
139.7
 22
107.95
 13
0.0
 23
0.0
 14
10.0
 24
10.0
 15
10.0
 25
10.0
 16
0.0
 26
0.0
 36
1.0
 17
0.0
 27
0.0
 37
0.0
 40
215.9
 41
1.2941176471
 42
50.0
 43
0.0
 44
0.0
 50
0.0
 51
0.0
 71
     0
 72
  2000
 73
     1
 74
     3
 75
     0
 76
     0
 77
     0
 78
     0
281
     0
 65
     1
110
0.0
120
0.0
130
0.0
111
1.0
121
0.0
131
0.0
112
0.0
122
1.0
132
0.0
 79
     0
146
0.0
  0
ENDTAB
  0
TABLE
  2
LTYPE
  5
5
330
0
100
AcDbSymbolTable
 70
     6
  0
LTYPE
  5
14
330
5
100
AcDbSymbolTableRecord
100
AcDbLinetypeTableRecord
  2
ByBlock
 70
     0
  3

 72
    65
 73
     0
 40
0.0
  0
LTYPE
  5
15
330
5
100
AcDbSymbolTableRecord
100
AcDbLinetypeTableRecord
  2
ByLayer
 70
     0
  3

 72
    65
 73
     0
 40
0.0
  0
LTYPE
  5
16
330
5
100
AcDbSymbolTableRecord
100
AcDbLinetypeTableRecord
  2
Continuous
 70
     0
  3
Solid line
 72
    65
 73
     0
 40
0.0
  0
LTYPE
  5
6E
330
5
100
AcDbSymbolTableRecord
100
AcDbLinetypeTableRecord
  2
HIDDEN
 70
     0
  3
Hidden __ __ __ __ __ __ __ __ __ __ __ __ __ __
 72
    65
 73
     2
 40
1.905
 49
1.27
 74
     0
 49
-0.635
 74
     0
  0
LTYPE
  5
6F
330
5
100
AcDbSymbolTableRecord
100
AcDbLinetypeTableRecord
  2
PHANTOM
 70
     0
  3
Phantom ______  __  __  ______  __  __  ______
 72
    65
 73
     6
 40
12.7
 49
6.35
 74
     0
 49
-1.27
 74
     0
 49
1.27
 74
     0
 49
-1.27
 74
     0
 49
1.27
 74
     0
 49
-1.27
 74
     0
  0
LTYPE
  5
70
330
5
100
AcDbSymbolTableRecord
100
AcDbLinetypeTableRecord
  2
CENTER
 70
     0
  3
Center ____ _ ____ _ ____ _ ____ _ ____ _ ____
 72
    65
 73
     4
 40
10.16
 49
6.35
 74
     0
 49
-1.27
 74
     0
 49
1.27
 74
     0
 49
-1.27
 74
     0
  0
LTYPE
  5
71
330
5
100
AcDbSymbolTableRecord
100
AcDbLinetypeTableRecord
  2
CENTERX2
 70
     0
  3
Center (2x) ________  __  ________  __  _____
 72
    65
 73
     4
 40
20.32
 49
12.7
 74
     0
 49
-2.54
 74
     0
 49
2.54
 74
     0
 49
-2.54
 74
     0
  0
LTYPE
  5
72
330
5
100
AcDbSymbolTableRecord
100
AcDbLinetypeTableRecord
  2
DOT2
 70
     0
  3
Dot (.5x) ........................................
 72
    65
 73
     2
 40
0.635
 49
0.0
 74
     0
 49
-0.635
 74
     0
  0
ENDTAB
  0
TABLE
  2
LAYER
  5
2
330
0
100
AcDbSymbolTable
 70
    17
  0
LAYER
  5
10
330
2
100
AcDbSymbolTableRecord
100
AcDbLayerTableRecord
  2
0
 70
     0
 62
     7
  6
Continuous
370
    -3
390
F
  0
LAYER
  5
73
330
2
100
AcDbSymbolTableRecord
100
AcDbLayerTableRecord
  2
FORMAT
 70
     0
 62
     7
  6
Continuous
370
    -3
390
F
  0
LAYER
  5
74
330
2
100
AcDbSymbolTableRecord
100
AcDbLayerTableRecord
  2
YARDIMCI_GEOMETRI
 70
     0
 62
    -6
  6
Continuous
290
     0
370
    -3
390
F
  0
LAYER
  5
75
330
2
100
AcDbSymbolTableRecord
100
AcDbLayerTableRecord
  2
SAYFA_CERCEVESI
 70
     0
 62
     7
  6
Continuous
370
    25
390
F
  0
LAYER
  5
76
330
2
100
AcDbSymbolTableRecord
100
AcDbLayerTableRecord
  2
ANTET
 70
     0
 62
     7
  6
Continuous
370
    -3
390
F
  0
LAYER
  5
77
330
2
100
AcDbSymbolTableRecord
100
AcDbLayerTableRecord
  2
OLCU
 70
     0
 62
   150
  6
Continuous
370
    -3
390
F
  0
LAYER
  5
78
330
2
100
AcDbSymbolTableRecord
100
AcDbLayerTableRecord
  2
METIN
 70
     0
 62
    96
  6
Continuous
370
    -3
390
F
  0
LAYER
  5
79
330
2
100
AcDbSymbolTableRecord
100
AcDbLayerTableRecord
  2
BALON
 70
     0
 62
     5
  6
Continuous
370
    -3
390
F
  0
LAYER
  5
7A
330
2
100
AcDbSymbolTableRecord
100
AcDbLayerTableRecord
  2
VURGU
 70
     0
 62
     7
  6
Continuous
370
    -3
390
F
  0
LAYER
  5
7B
330
2
100
AcDbSymbolTableRecord
100
AcDbLayerTableRecord
  2
SILIK
 70
     0
 62
     7
  6
Continuous
370
    -3
390
F
  0
LAYER
  5
7C
330
2
100
AcDbSymbolTableRecord
100
AcDbLayerTableRecord
  2
MODEL
 70
     0
 62
     7
  6
Continuous
370
    -3
390
F
  0
LAYER
  5
7D
330
2
100
AcDbSymbolTableRecord
100
AcDbLayerTableRecord
  2
DETAYLANDıRMA
 70
     0
 62
   190
  6
Continuous
370
    -3
390
F
  0
LAYER
  5
7E
330
2
100
AcDbSymbolTableRecord
100
AcDbLayerTableRecord
  2
TOLERANS
 70
     0
 62
   230
  6
Continuous
370
    -3
390
F
  0
LAYER
  5
7F
330
2
100
AcDbSymbolTableRecord
100
AcDbLayerTableRecord
  2
MERKEZ_CIZGILERI
 70
     0
 62
    30
  6
Continuous
370
    -3
390
F
  0
LAYER
  5
80
330
2
100
AcDbSymbolTableRecord
100
AcDbLayerTableRecord
  2
KESIT-DETAY_CIZGILERI
 70
     0
 62
     7
  6
Continuous
370
    -3
390
F
  0
LAYER
  5
81
330
2
100
AcDbSymbolTableRecord
100
AcDbLayerTableRecord
  2
\U+041E\U+0421\U+0415\U+0412\U+042B\U+0415
 70
     0
 62
     7
  6
Continuous
370
    -3
390
F
  0
LAYER
  5
82
330
2
100
AcDbSymbolTableRecord
100
AcDbLayerTableRecord
  2
\U+0412\U+041E\U+0414\U+042F\U+041D\U+042B\U+0415_\U+0417\U+041D\U+0410\U+041A\U+0418
 70
     0
 62
    11
  6
Continuous
370
    -3
390
F
  0
ENDTAB
  0
TABLE
  2
STYLE
  5
3
330
0
100
AcDbSymbolTable
 70
     1
  0
STYLE
  5
11
330
3
100
AcDbSymbolTableRecord
100
AcDbTextStyleTableRecord
  2
Standard
 70
     0
 40
0.0
 41
1.0
 50
0.0
 71
     0
 42
3.5
  3
txt
  4

  0
ENDTAB
  0
TABLE
  2
VIEW
  5
6
330
0
100
AcDbSymbolTable
 70
     0
  0
ENDTAB
  0
TABLE
  2
UCS
  5
7
330
0
100
AcDbSymbolTable
 70
     0
  0
ENDTAB
  0
TABLE
  2
APPID
  5
9
330
0
100
AcDbSymbolTable
 70
     1
  0
APPID
  5
12
330
9
100
AcDbSymbolTableRecord
100
AcDbRegAppTableRecord
  2
ACAD
 70
     0
  0
ENDTAB
  0
TABLE
  2
DIMSTYLE
  5
A
330
0
100
AcDbSymbolTable
 70
     1
100
AcDbDimStyleTable
  0
DIMSTYLE
105
27
330
A
100
AcDbSymbolTableRecord
100
AcDbDimStyleTableRecord
  2
ISO-25
 70
     0
 41
2.5
 42
0.625
 43
3.75
 44
1.25
 73
     0
 74
     0
 77
     1
 78
     8
140
2.5
141
2.5
143
0.0393700787
147
0.625
171
     3
172
     1
178
     0
271
     2
272
     2
274
     3
278
    44
283
     0
284
     8
340
11
  0
ENDTAB
  0
TABLE
  2
BLOCK_RECORD
  5
1
330
0
100
AcDbSymbolTable
 70
     5
  0
BLOCK_RECORD
  5
1F
330
1
100
AcDbSymbolTableRecord
100
AcDbBlockTableRecord
  2
*Model_Space
340
22
  0
BLOCK_RECORD
  5
1B
330
1
100
AcDbSymbolTableRecord
100
AcDbBlockTableRecord
  2
*Paper_Space
340
1E
  0
BLOCK_RECORD
  5
23
330
1
100
AcDbSymbolTableRecord
100
AcDbBlockTableRecord
  2
*Paper_Space0
340
26
  0
BLOCK_RECORD
  5
97
330
1
100
AcDbSymbolTableRecord
100
AcDbBlockTableRecord
  2
SW_CENTERMARKSYMBOL_0
340
0
102
{BLKREFS
331
A2
102
}
  0
BLOCK_RECORD
  5
AC
330
1
100
AcDbSymbolTableRecord
100
AcDbBlockTableRecord
  2
SW_CENTERMARKSYMBOL_1
340
0
102
{BLKREFS
331
B7
102
}
  0
BLOCK_RECORD
  5
BF
330
1
100
AcDbSymbolTableRecord
100
AcDbBlockTableRecord
  2
SW_CENTERMARKSYMBOL_2
340
0
102
{BLKREFS
331
CA
102
}
  0
BLOCK_RECORD
  5
D2
330
1
100
AcDbSymbolTableRecord
100
AcDbBlockTableRecord
  2
SW_CENTERMARKSYMBOL_3
340
0
102
{BLKREFS
331
DD
102
}
  0
ENDTAB
  0
ENDSEC
  0
SECTION
  2
BLOCKS
  0
BLOCK
  5
20
330
1F
100
AcDbEntity
  8
0
100
AcDbBlockBegin
  2
*Model_Space
 70
     0
 10
0.0
 20
0.0
 30
0.0
  3
*Model_Space
  1

  0
ENDBLK
  5
21
330
1F
100
AcDbEntity
  8
0
100
AcDbBlockEnd
  0
BLOCK
  5
1C
330
1B
100
AcDbEntity
 67
     1
  8
0
100
AcDbBlockBegin
  2
*Paper_Space
 70
     0
 10
0.0
 20
0.0
 30
0.0
  3
*Paper_Space
  1

  0
ENDBLK
  5
1D
330
1B
100
AcDbEntity
 67
     1
  8
0
100
AcDbBlockEnd
  0
BLOCK
  5
24
330
23
100
AcDbEntity
  8
0
100
AcDbBlockBegin
  2
*Paper_Space0
 70
     0
 10
0.0
 20
0.0
 30
0.0
  3
*Paper_Space0
  1

  0
ENDBLK
  5
25
330
23
100
AcDbEntity
  8
0
100
AcDbBlockEnd
  0
BLOCK
  5
98
330
97
100
AcDbEntity
  8
0
100
AcDbBlockBegin
  2
SW_CENTERMARKSYMBOL_0
 70
     0
 10
0.0
 20
0.0
 30
0.0
  3
SW_CENTERMARKSYMBOL_0
  1

  0
LINE
  5
9A
330
97
100
AcDbEntity
  8
FORMAT
 62
     0
100
AcDbLine
 10
0.0
 20
0.0
 30
0.0
 11
0.0
 21
2.5
 31
0.0
  0
LINE
  5
9B
330
97
100
AcDbEntity
  8
FORMAT
 62
     0
100
AcDbLine
 10
0.0
 20
0.0
 30
0.0
 11
-2.5
 21
0.0
 31
0.0
  0
LINE
  5
9C
330
97
100
AcDbEntity
  8
FORMAT
 62
     0
100
AcDbLine
 10
0.0
 20
0.0
 30
0.0
 11
0.0
 21
-2.5
 31
0.0
  0
LINE
  5
9D
330
97
100
AcDbEntity
  8
FORMAT
 62
     0
100
AcDbLine
 10
0.0
 20
0.0
 30
0.0
 11
2.5
 21
0.0
 31
0.0
  0
LINE
  5
9E
330
97
100
AcDbEntity
  8
FORMAT
 62
     0
100
AcDbLine
 10
0.0
 20
5.0
 30
0.0
 11
0.0
 21
142.5
 31
0.0
  0
LINE
  5
9F
330
97
100
AcDbEntity
  8
FORMAT
 62
     0
100
AcDbLine
 10
-5.0
 20
0.0
 30
0.0
 11
-142.5
 21
0.0
 31
0.0
  0
LINE
  5
A0
330
97
100
AcDbEntity
  8
FORMAT
 62
     0
100
AcDbLine
 10
0.0
 20
-5.0
 30
0.0
 11
0.0
 21
-142.5
 31
0.0
  0
LINE
  5
A1
330
97
100
AcDbEntity
  8
FORMAT
 62
     0
100
AcDbLine
 10
5.0
 20
0.0
 30
0.0
 11
142.5
 21
0.0
 31
0.0
  0
ENDBLK
  5
99
330
97
100
AcDbEntity
  8
0
100
AcDbBlockEnd
  0
BLOCK
  5
AD
330
AC
100
AcDbEntity
  8
0
100
AcDbBlockBegin
  2
SW_CENTERMARKSYMBOL_1
 70
     0
 10
0.0
 20
0.0
 30
0.0
  3
SW_CENTERMARKSYMBOL_1
  1

  0
LINE
  5
AF
330
AC
100
AcDbEntity
  8
FORMAT
 62
     0
100
AcDbLine
 10
0.0
 20
0.0
 30
0.0
 11
0.0
 21
2.5
 31
0.0
  0
LINE
  5
B0
330
AC
100
AcDbEntity
  8
FORMAT
 62
     0
100
AcDbLine
 10
0.0
 20
0.0
 30
0.0
 11
-2.5
 21
0.0
 31
0.0
  0
LINE
  5
B1
330
AC
100
AcDbEntity
  8
FORMAT
 62
     0
100
AcDbLine
 10
0.0
 20
0.0
 30
0.0
 11
0.0
 21
-2.5
 31
0.0
  0
LINE
  5
B2
330
AC
100
AcDbEntity
  8
FORMAT
 62
     0
100
AcDbLine
 10
0.0
 20
0.0
 30
0.0
 11
2.5
 21
0.0
 31
0.0
  0
LINE
  5
B3
330
AC
100
AcDbEntity
  8
FORMAT
 62
     0
100
AcDbLine
 10
0.0
 20
5.0
 30
0.0
 11
0.0
 21
142.5
 31
0.0
  0
LINE
  5
B4
330
AC
100
AcDbEntity
  8
FORMAT
 62
     0
100
AcDbLine
 10
-5.0
 20
0.0
 30
0.0
 11
-142.5
 21
0.0
 31
0.0
  0
LINE
  5
B5
330
AC
100
AcDbEntity
  8
FORMAT
 62
     0
100
AcDbLine
 10
0.0
 20
-5.0
 30
0.0
 11
0.0
 21
-142.5
 31
0.0
  0
LINE
  5
B6
330
AC
100
AcDbEntity
  8
FORMAT
 62
     0
100
AcDbLine
 10
5.0
 20
0.0
 30
0.0
 11
142.5
 21
0.0
 31
0.0
  0
ENDBLK
  5
AE
330
AC
100
AcDbEntity
  8
0
100
AcDbBlockEnd
  0
BLOCK
  5
C0
330
BF
100
AcDbEntity
  8
0
100
AcDbBlockBegin
  2
SW_CENTERMARKSYMBOL_2
 70
     0
 10
0.0
 20
0.0
 30
0.0
  3
SW_CENTERMARKSYMBOL_2
  1

  0
LINE
  5
C2
330
BF
100
AcDbEntity
  8
FORMAT
 62
     0
100
AcDbLine
 10
0.0
 20
0.0
 30
0.0
 11
0.0
 21
2.5
 31
0.0
  0
LINE
  5
C3
330
BF
100
AcDbEntity
  8
FORMAT
 62
     0
100
AcDbLine
 10
0.0
 20
0.0
 30
0.0
 11
-2.5
 21
0.0
 31
0.0
  0
LINE
  5
C4
330
BF
100
AcDbEntity
  8
FORMAT
 62
     0
100
AcDbLine
 10
0.0
 20
0.0
 30
0.0
 11
0.0
 21
-2.5
 31
0.0
  0
LINE
  5
C5
330
BF
100
AcDbEntity
  8
FORMAT
 62
     0
100
AcDbLine
 10
0.0
 20
0.0
 30
0.0
 11
2.5
 21
0.0
 31
0.0
  0
LINE
  5
C6
330
BF
100
AcDbEntity
  8
FORMAT
 62
     0
100
AcDbLine
 10
0.0
 20
5.0
 30
0.0
 11
0.0
 21
142.5
 31
0.0
  0
LINE
  5
C7
330
BF
100
AcDbEntity
  8
FORMAT
 62
     0
100
AcDbLine
 10
-5.0
 20
0.0
 30
0.0
 11
-142.5
 21
0.0
 31
0.0
  0
LINE
  5
C8
330
BF
100
AcDbEntity
  8
FORMAT
 62
     0
100
AcDbLine
 10
0.0
 20
-5.0
 30
0.0
 11
0.0
 21
-142.5
 31
0.0
  0
LINE
  5
C9
330
BF
100
AcDbEntity
  8
FORMAT
 62
     0
100
AcDbLine
 10
5.0
 20
0.0
 30
0.0
 11
142.5
 21
0.0
 31
0.0
  0
ENDBLK
  5
C1
330
BF
100
AcDbEntity
  8
0
100
AcDbBlockEnd
  0
BLOCK
  5
D3
330
D2
100
AcDbEntity
  8
0
100
AcDbBlockBegin
  2
SW_CENTERMARKSYMBOL_3
 70
     0
 10
0.0
 20
0.0
 30
0.0
  3
SW_CENTERMARKSYMBOL_3
  1

  0
LINE
  5
D5
330
D2
100
AcDbEntity
  8
FORMAT
 62
     0
100
AcDbLine
 10
0.0
 20
0.0
 30
0.0
 11
0.0
 21
2.5
 31
0.0
  0
LINE
  5
D6
330
D2
100
AcDbEntity
  8
FORMAT
 62
     0
100
AcDbLine
 10
0.0
 20
0.0
 30
0.0
 11
-2.5
 21
0.0
 31
0.0
  0
LINE
  5
D7
330
D2
100
AcDbEntity
  8
FORMAT
 62
     0
100
AcDbLine
 10
0.0
 20
0.0
 30
0.0
 11
0.0
 21
-2.5
 31
0.0
  0
LINE
  5
D8
330
D2
100
AcDbEntity
  8
FORMAT
 62
     0
100
AcDbLine
 10
0.0
 20
0.0
 30
0.0
 11
2.5
 21
0.0
 31
0.0
  0
LINE
  5
D9
330
D2
100
AcDbEntity
  8
FORMAT
 62
     0
100
AcDbLine
 10
0.0
 20
5.0
 30
0.0
 11
0.0
 21
142.5
 31
0.0
  0
LINE
  5
DA
330
D2
100
AcDbEntity
  8
FORMAT
 62
     0
100
AcDbLine
 10
-5.0
 20
0.0
 30
0.0
 11
-142.5
 21
0.0
 31
0.0
  0
LINE
  5
DB
330
D2
100
AcDbEntity
  8
FORMAT
 62
     0
100
AcDbLine
 10
0.0
 20
-5.0
 30
0.0
 11
0.0
 21
-142.5
 31
0.0
  0
LINE
  5
DC
330
D2
100
AcDbEntity
  8
FORMAT
 62
     0
100
AcDbLine
 10
5.0
 20
0.0
 30
0.0
 11
142.5
 21
0.0
 31
0.0
  0
ENDBLK
  5
D4
330
D2
100
AcDbEntity
  8
0
100
AcDbBlockEnd
  0
ENDSEC
  0
SECTION
  2
ENTITIES
  0
LINE
  5
83
330
1F
100
AcDbEntity
  8
0
  6
Continuous
 62
     7
370
    25
100
AcDbLine
 10
-43.0081373905
 20
59.6038258982
 30
0.0
 11
-43.0081373905
 21
-140.3961741018
 31
0.0
  0
LINE
  5
84
330
1F
100
AcDbEntity
  8
0
  6
Continuous
 62
     7
370
    25
100
AcDbLine
 10
236.9918626095
 20
-140.3961741018
 30
0.0
 11
236.9918626095
 21
59.6038258982
 31
0.0
  0
ARC
  5
85
330
1F
100
AcDbEntity
  8
0
  6
Continuous
 62
     7
370
    25
100
AcDbCircle
 10
236.9918626095
 20
59.6038258982
 30
0.0
 40
280.0
100
AcDbArc
 50
90.0
 51
180.0
  0
LINE
  5
86
330
1F
100
AcDbEntity
  8
0
  6
Continuous
 62
     7
370
    25
100
AcDbLine
 10
436.9918626095
 20
339.6038258982
 30
0.0
 11
236.9918626095
 21
339.6038258982
 31
0.0
  0
LINE
  5
87
330
1F
100
AcDbEntity
  8
0
  6
Continuous
 62
     7
370
    25
100
AcDbLine
 10
236.9918626095
 20
59.6038258982
 30
0.0
 11
436.9918626095
 21
59.6038258982
 31
0.0
  0
LINE
  5
88
330
1F
100
AcDbEntity
  8
0
  6
Continuous
 62
     7
370
    25
100
AcDbLine
 10
96.9918626095
 20
-140.3961741018
 30
0.0
 11
236.9918626095
 21
-140.3961741018
 31
0.0
  0
LINE
  5
89
330
1F
100
AcDbEntity
  8
0
  6
Continuous
 62
     7
370
    25
100
AcDbLine
 10
-43.0081373905
 20
-140.3961741018
 30
0.0
 11
96.9918626095
 21
-140.3961741018
 31
0.0
  0
LINE
  5
8A
330
1F
100
AcDbEntity
  8
0
  6
Continuous
 62
     7
370
    25
100
AcDbLine
 10
436.9918626095
 20
199.6038258982
 30
0.0
 11
436.9918626095
 21
59.6038258982
 31
0.0
  0
LINE
  5
8B
330
1F
100
AcDbEntity
  8
0
  6
Continuous
 62
     7
370
    25
100
AcDbLine
 10
436.9918626095
 20
339.6038258982
 30
0.0
 11
436.9918626095
 21
199.6038258982
 31
0.0
  0
LINE
  5
8C
330
1F
100
AcDbEntity
  8
0
  6
Continuous
 62
     1
370
    25
100
AcDbLine
 10
-43.0081373905
 20
59.6038258982
 30
0.0
 11
236.9918626095
 21
59.6038258982
 31
0.0
  0
LINE
  5
8D
330
1F
100
AcDbEntity
  8
0
  6
Continuous
 62
     1
370
    25
100
AcDbLine
 10
236.9918626095
 20
339.6038258982
 30
0.0
 11
236.9918626095
 21
59.6038258982
 31
0.0
  0
LINE
  5
8E
330
1F
100
AcDbEntity
  8
0
  6
Continuous
 62
     7
370
    25
100
AcDbLine
 10
-545.885884558
 20
199.6038258982
 30
0.0
 11
-545.885884558
 21
59.6038258982
 31
0.0
  0
LINE
  5
8F
330
1F
100
AcDbEntity
  8
0
  6
Continuous
 62
     7
370
    25
100
AcDbLine
 10
-265.885884558
 20
59.6038258982
 30
0.0
 11
-265.885884558
 21
199.6038258982
 31
0.0
  0
LINE
  5
90
330
1F
100
AcDbEntity
  8
0
  6
Continuous
 62
     7
370
    25
100
AcDbLine
 10
-545.885884558
 20
59.6038258982
 30
0.0
 11
-545.885884558
 21
-140.3961741018
 31
0.0
  0
LINE
  5
91
330
1F
100
AcDbEntity
  8
0
  6
Continuous
 62
     7
370
    25
100
AcDbLine
 10
-265.885884558
 20
-140.3961741018
 30
0.0
 11
-265.885884558
 21
59.6038258982
 31
0.0
  0
CIRCLE
  5
92
330
1F
100
AcDbEntity
  8
0
  6
Continuous
 62
     7
370
    25
100
AcDbCircle
 10
-405.885884558
 20
199.6038258982
 30
0.0
 40
140.0
  0
CIRCLE
  5
93
330
1F
100
AcDbEntity
  8
0
  6
Continuous
 62
     7
370
    25
100
AcDbCircle
 10
-405.885884558
 20
199.6038258982
 30
0.0
 40
114.6
  0
LINE
  5
94
330
1F
100
AcDbEntity
  8
0
  6
Continuous
 62
     7
370
    25
100
AcDbLine
 10
-545.885884558
 20
-140.3961741018
 30
0.0
 11
-265.885884558
 21
-140.3961741018
 31
0.0
  0
LINE
  5
95
330
1F
100
AcDbEntity
  8
0
  6
Continuous
 62
     1
370
    25
100
AcDbLine
 10
-405.885884558
 20
59.6038258982
 30
0.0
 11
-265.885884558
 21
59.6038258982
 31
0.0
  0
LINE
  5
96
330
1F
100
AcDbEntity
  8
0
  6
Continuous
 62
     1
370
    25
100
AcDbLine
 10
-545.885884558
 20
59.6038258982
 30
0.0
 11
-405.885884558
 21
59.6038258982
 31
0.0
  0
INSERT
  5
A2
330
1F
100
AcDbEntity
  8
FORMAT
 62
     7
100
AcDbBlockReference
  2
SW_CENTERMARKSYMBOL_0
 10
-405.885884558
 20
199.6038258982
 30
0.0
  0
LINE
  5
A3
330
1F
100
AcDbEntity
  8
0
  6
Continuous
 62
     7
370
    25
100
AcDbLine
 10
436.9918626095
 20
814.4186637927
 30
0.0
 11
236.9918626095
 21
814.4186637927
 31
0.0
  0
LINE
  5
A4
330
1F
100
AcDbEntity
  8
0
  6
Continuous
 62
     7
370
    25
100
AcDbLine
 10
236.9918626095
 20
534.4186637927
 30
0.0
 11
436.9918626095
 21
534.4186637927
 31
0.0
  0
LINE
  5
A5
330
1F
100
AcDbEntity
  8
0
  6
Continuous
 62
     7
370
    25
100
AcDbLine
 10
236.9918626095
 20
814.4186637927
 30
0.0
 11
96.9918626095
 21
814.4186637927
 31
0.0
  0
LINE
  5
A6
330
1F
100
AcDbEntity
  8
0
  6
Continuous
 62
     7
370
    25
100
AcDbLine
 10
96.9918626095
 20
534.4186637927
 30
0.0
 11
236.9918626095
 21
534.4186637927
 31
0.0
  0
CIRCLE
  5
A7
330
1F
100
AcDbEntity
  8
0
  6
Continuous
 62
     7
370
    25
100
AcDbCircle
 10
96.9918626095
 20
674.4186637927
 30
0.0
 40
114.6
  0
CIRCLE
  5
A8
330
1F
100
AcDbEntity
  8
0
  6
Continuous
 62
     7
370
    25
100
AcDbCircle
 10
96.9918626095
 20
674.4186637927
 30
0.0
 40
140.0
  0
LINE
  5
A9
330
1F
100
AcDbEntity
  8
0
  6
Continuous
 62
     7
370
    25
100
AcDbLine
 10
436.9918626095
 20
814.4186637927
 30
0.0
 11
436.9918626095
 21
534.4186637927
 31
0.0
  0
LINE
  5
AA
330
1F
100
AcDbEntity
  8
0
  6
Continuous
 62
     1
370
    25
100
AcDbLine
 10
236.9918626095
 20
674.4186637927
 30
0.0
 11
236.9918626095
 21
534.4186637927
 31
0.0
  0
LINE
  5
AB
330
1F
100
AcDbEntity
  8
0
  6
Continuous
 62
     1
370
    25
100
AcDbLine
 10
236.9918626095
 20
814.4186637927
 30
0.0
 11
236.9918626095
 21
674.4186637927
 31
0.0
  0
INSERT
  5
B7
330
1F
100
AcDbEntity
  8
FORMAT
 62
     7
100
AcDbBlockReference
  2
SW_CENTERMARKSYMBOL_1
 10
96.9918626095
 20
674.4186637927
 30
0.0
  0
LINE
  5
B8
330
1F
100
AcDbEntity
  8
0
  6
Continuous
 62
     7
370
    25
100
AcDbLine
 10
664.2001129571
 20
59.6038258982
 30
0.0
 11
664.2001129571
 21
-140.3961741018
 31
0.0
  0
LINE
  5
B9
330
1F
100
AcDbEntity
  8
0
  6
Continuous
 62
     7
370
    25
100
AcDbLine
 10
944.2001129571
 20
-140.3961741018
 30
0.0
 11
944.2001129571
 21
59.6038258982
 31
0.0
  0
LINE
  5
BA
330
1F
100
AcDbEntity
  8
0
  6
Continuous
 62
     7
370
    25
100
AcDbLine
 10
944.2001129571
 20
59.6038258982
 30
0.0
 11
944.2001129571
 21
199.6038258982
 31
0.0
  0
LINE
  5
BB
330
1F
100
AcDbEntity
  8
0
  6
Continuous
 62
     7
370
    25
100
AcDbLine
 10
664.2001129571
 20
199.6038258982
 30
0.0
 11
664.2001129571
 21
59.6038258982
 31
0.0
  0
LINE
  5
BC
330
1F
100
AcDbEntity
  8
0
  6
Continuous
 62
     7
370
    25
100
AcDbLine
 10
664.2001129571
 20
-140.3961741018
 30
0.0
 11
944.2001129571
 21
-140.3961741018
 31
0.0
  0
ARC
  5
BD
330
1F
100
AcDbEntity
  8
0
  6
Continuous
 62
     7
370
    25
100
AcDbCircle
 10
804.2001129571
 20
199.6038258982
 30
0.0
 40
140.0000000000001
100
AcDbArc
 50
0.0
 51
180.0
  0
LINE
  5
BE
330
1F
100
AcDbEntity
  8
0
  6
Continuous
 62
     1
370
    25
100
AcDbLine
 10
664.2001129571
 20
59.6038258982
 30
0.0
 11
944.2001129571
 21
59.6038258982
 31
0.0
  0
INSERT
  5
CA
330
1F
100
AcDbEntity
  8
FORMAT
 62
     7
100
AcDbBlockReference
  2
SW_CENTERMARKSYMBOL_2
 10
804.2001129571
 20
199.6038258982
 30
0.0
  0
LINE
  5
CB
330
1F
100
AcDbEntity
  8
0
  6
Continuous
 62
     7
370
    25
100
AcDbLine
 10
96.9918626095
 20
-684.3745993204
 30
0.0
 11
236.9918626095
 21
-684.3745993204
 31
0.0
  0
LINE
  5
CC
330
1F
100
AcDbEntity
  8
0
  6
Continuous
 62
     7
370
    25
100
AcDbLine
 10
236.9918626095
 20
-404.3745993204
 30
0.0
 11
96.9918626095
 21
-404.3745993204
 31
0.0
  0
LINE
  5
CD
330
1F
100
AcDbEntity
  8
0
  6
Continuous
 62
     7
370
    25
100
AcDbLine
 10
436.9918626095
 20
-404.3745993204
 30
0.0
 11
236.9918626095
 21
-404.3745993204
 31
0.0
  0
LINE
  5
CE
330
1F
100
AcDbEntity
  8
0
  6
Continuous
 62
     7
370
    25
100
AcDbLine
 10
236.9918626095
 20
-684.3745993204
 30
0.0
 11
436.9918626095
 21
-684.3745993204
 31
0.0
  0
ARC
  5
CF
330
1F
100
AcDbEntity
  8
0
  6
Continuous
 62
     7
370
    25
100
AcDbCircle
 10
96.9918626095
 20
-544.3745993204
 30
0.0
 40
140.0000000000001
100
AcDbArc
 50
90.0
 51
270.0
  0
LINE
  5
D0
330
1F
100
AcDbEntity
  8
0
  6
Continuous
 62
     7
370
    25
100
AcDbLine
 10
436.9918626095
 20
-404.3745993204
 30
0.0
 11
436.9918626095
 21
-684.3745993204
 31
0.0
  0
LINE
  5
D1
330
1F
100
AcDbEntity
  8
0
  6
Continuous
 62
     1
370
    25
100
AcDbLine
 10
236.9918626095
 20
-404.3745993204
 30
0.0
 11
236.9918626095
 21
-684.3745993204
 31
0.0
  0
INSERT
  5
DD
330
1F
100
AcDbEntity
  8
FORMAT
 62
     7
100
AcDbBlockReference
  2
SW_CENTERMARKSYMBOL_3
 10
96.9918626095
 20
-544.3745993204
 30
0.0
  0
LINE
  5
DE
330
1F
100
AcDbEntity
  8
0
  6
Continuous
 62
     7
370
    25
100
AcDbLine
 10
895.6700706174
 20
-251.6630677917
 30
0.0
 11
754.2487143801
 21
-333.303878974
 31
0.0
  0
LINE
  5
DF
330
1F
100
AcDbEntity
  8
0
  6
Continuous
 62
     7
370
    25
100
AcDbLine
 10
894.2373369492
 20
-575.7975604406
 30
0.0
 11
1035.6586931865
 21
-494.1567492583
 31
0.0
  0
LINE
  5
E0
330
1F
100
AcDbEntity
  8
0
  6
Continuous
 62
     7
370
    25
100
AcDbLine
 10
585.2480762985
 20
-626.0150011989
 30
0.0
 11
585.2480762985
 21
-789.323163576
 31
0.0
  0
LINE
  5
E1
330
1F
100
AcDbEntity
  8
0
  6
Continuous
 62
     7
370
    25
100
AcDbLine
 10
865.2480762985
 20
-789.323163576
 30
0.0
 11
865.2480762985
 21
-626.0150011989
 31
0.0
  0
SPLINE
  5
E2
330
1F
100
AcDbEntity
  8
0
  6
Continuous
 62
     7
370
    25
100
AcDbSpline
210
0.0
220
0.0
230
1.0
 70
     8
 71
     3
 72
    45
 73
    41
 74
     0
 42
0.00000001
 43
0.00000001
 40
0.0
 40
0.0
 40
0.0
 40
0.0
 40
0.0171941479840629
 40
0.0436471690229654
 40
0.0701525533081775
 40
0.0967694228666108
 40
0.1234646019826987
 40
0.1502070788611124
 40
0.1769625606217354
 40
0.2037060053059646
 40
0.2304195177612764
 40
0.2570900813918638
 40
0.2837093680127781
 40
0.3102733237324539
 40
0.3367816379948044
 40
0.363237172739316
 40
0.3896454051169833
 40
0.4160139153988919
 40
0.4423519343712224
 40
0.4686699521358917
 40
0.494979382162671
 40
0.5212922695738381
 40
0.547619751961837
 40
0.5739715054475615
 40
0.6003600374262458
 40
0.6267975545606262
 40
0.6532956783632067
 40
0.6798651169295049
 40
0.7065152771004337
 40
0.7332538042643207
 40
0.7600860422576927
 40
0.7870144151207418
 40
0.8140377472902393
 40
0.8411505602089044
 40
0.8683424109249319
 40
0.8955973688887552
 40
0.9228937535007781
 40
0.9501943329090358
 40
0.9774651441388078
 40
1.0
 40
1.0
 40
1.0
 40
1.0
 10
754.2487143801135
 20
-333.3038789739954
 30
0.0
 10
752.5617588409818
 20
-334.2922097063537
 30
0.0
 10
748.2794394367895
 20
-336.8010771748562
 30
0.0
 10
741.5098949540154
 20
-341.07082570071
 30
0.0
 10
733.95583243239
 20
-346.15813802334
 30
0.0
 10
726.5163087024689
 20
-351.5187192522092
 30
0.0
 10
719.1935778217726
 20
-357.1415657870118
 30
0.0
 10
712.0013749221349
 20
-363.0152986951613
 30
0.0
 10
704.951418443514
 20
-369.1261332673082
 30
0.0
 10
698.0541255887385
 20
-375.46073945984
 30
0.0
 10
691.3177773311847
 20
-382.0065159562162
 30
0.0
 10
684.7491480548887
 20
-388.751660824426
 30
0.0
 10
678.3538466775773
 20
-395.6850920864135
 30
0.0
 10
672.1365151959212
 20
-402.7965318157675
 30
0.0
 10
666.1010350966432
 20
-410.0765148038279
 30
0.0
 10
660.2507298390361
 20
-417.5163592526857
 30
0.0
 10
654.5885488383094
 20
-425.1081099909527
 30
0.0
 10
649.1172277170547
 20
-432.8444679927167
 30
0.0
 10
643.8394234467552
 20
-440.7187145506647
 30
0.0
 10
638.7578261801425
 20
-448.7246355157091
 30
0.0
 10
633.8752511094557
 20
-456.8564480524689
 30
0.0
 10
629.1947900376889
 20
-465.1085966270836
 30
0.0
 10
624.7199463513336
 20
-473.4755061029239
 30
0.0
 10
620.4544867712789
 20
-481.9518097186885
 30
0.0
 10
616.4024231453641
 20
-490.5324305427529
 30
0.0
 10
612.5680020261477
 20
-499.2126959440142
 30
0.0
 10
608.9559096170427
 20
-507.9879393147936
 30
0.0
 10
605.5713092033623
 20
-516.8533885921076
 30
0.0
 10
602.4198718490876
 20
-525.8040320439718
 30
0.0
 10
599.5077971565794
 20
-534.8344568657891
 30
0.0
 10
596.8418166458687
 20
-543.9386581527641
 30
0.0
 10
594.429178608974
 20
-553.1098182786614
 30
0.0
 10
592.2775801871418
 20
-562.3400647702641
 30
0.0
 10
590.3951289152774
 20
-571.620211392448
 30
0.0
 10
588.789976175293
 20
-580.9395368701341
 30
0.0
 10
587.4709197372835
 20
-590.2855142731851
 30
0.0
 10
586.444218873823
 20
-599.6428437665293
 30
0.0
 10
585.7243672946983
 20
-608.9933764254992
 30
0.0
 10
585.3160300371
 20
-617.7877351649093
 30
0.0
 10
585.2692446235709
 20
-623.4521187833138
 30
0.0
 10
585.2480762985215
 20
-626.0150011988856
 30
0.0
  0
SPLINE
  5
E3
330
1F
100
AcDbEntity
  8
0
  6
Continuous
 62
     7
370
    25
100
AcDbSpline
210
0.0
220
0.0
230
1.0
 70
     8
 71
     3
 72
    39
 73
    35
 74
     0
 42
0.00000001
 43
0.00000001
 40
0.0
 40
0.0
 40
0.0
 40
0.0
 40
0.0337004916780747
 40
0.0670602339932732
 40
0.0996024538017134
 40
0.1315224320362789
 40
0.1629983838638498
 40
0.1941890025712698
 40
0.2252314126534822
 40
0.2562396090707538
 40
0.2873035041686958
 40
0.3184711354018227
 40
0.3497862020402396
 40
0.3812757038064411
 40
0.4129461708931058
 40
0.4447865282150454
 40
0.476771535834653
 40
0.5088657152911744
 40
0.541027632161732
 40
0.5732028696406414
 40
0.6053494685521386
 40
0.6374382314097673
 40
0.6694538462671911
 40
0.7013989753547033
 40
0.73329782270372
 40
0.7651989887125408
 40
0.7971774440225629
 40
0.8293057543369057
 40
0.861700504255516
 40
0.8945068013657917
 40
0.9278936913275122
 40
0.9620515662173533
 40
0.9971890625742608
 40
1.0
 40
1.0
 40
1.0
 40
1.0
 10
865.2466837511182
 20
-626.1490817164902
 30
0.0
 10
865.247523678523
 20
-626.1230420859977
 30
0.0
 10
865.2491950407347
 20
-626.0712261145687
 30
0.0
 10
865.2843764665382
 20
-625.6199252266362
 30
0.0
 10
865.3679312945708
 20
-624.9037908858256
 30
0.0
 10
865.5173341281434
 20
-623.9121146745118
 30
0.0
 10
865.7474656270094
 20
-622.6655790611818
 30
0.0
 10
866.0718541185034
 20
-621.1772426471991
 30
0.0
 10
866.5022031070447
 20
-619.4639586905763
 30
0.0
 10
867.0483084242205
 20
-617.5438810448665
 30
0.0
 10
867.7176492431312
 20
-615.4379512824196
 30
0.0
 10
868.5151272373239
 20
-613.1696061671652
 30
0.0
 10
869.4428249624978
 20
-610.7646541226223
 30
0.0
 10
870.5000182084648
 20
-608.250565548563
 30
0.0
 10
871.6828536316236
 20
-605.6566509305458
 30
0.0
 10
872.9841501317856
 20
-603.0138187476851
 30
0.0
 10
874.3933498286738
 20
-600.3540442539781
 30
0.0
 10
875.8965815911139
 20
-597.7097240960749
 30
0.0
 10
877.4766540828632
 20
-595.1132648751019
 30
0.0
 10
879.113471902772
 20
-592.5960332435021
 30
0.0
 10
880.7845546678595
 20
-590.1874210649733
 30
0.0
 10
882.4658019330799
 20
-587.9138369743309
 30
0.0
 10
884.1319278456883
 20
-585.7983614168016
 30
0.0
 10
885.7569598850121
 20
-583.8604020675571
 30
0.0
 10
887.3147672311809
 20
-582.115415652324
 30
0.0
 10
888.7794893873305
 20
-580.5748130117282
 30
0.0
 10
890.1255236800054
 20
-579.2463873007769
 30
0.0
 10
891.3279109441679
 20
-578.1341061932964
 30
0.0
 10
892.363635701396
 20
-577.2376293576244
 30
0.0
 10
893.2081039623176
 20
-576.5547392969768
 30
0.0
 10
893.849118305635
 20
-576.0734261531417
 30
0.0
 10
894.231086589742
 20
-575.8053459375898
 30
0.0
 10
894.3937474755272
 20
-575.704843109539
 30
0.0
 10
894.3495616600004
 20
-575.7310754404068
 30
0.0
 10
894.346288703776
 20
-575.7330185361621
 30
0.0
  0
LWPOLYLINE
  5
E4
330
1F
100
AcDbEntity
  8
0
  6
Continuous
 62
     7
370
    25
100
AcDbPolyline
 90
      126
 70
   128
 43
0.0
 10
866.6694325358
 20
-315.7613406974
 10
866.7944674527
 20
-321.5772369088
 10
867.1692563541
 20
-327.5228039037
 10
867.7928524909
 20
-333.5830226639
 10
868.663680605
 20
-339.742584551
 10
869.7795409091
 20
-345.9859299769
 10
871.1376146433
 20
-352.2972877093
 10
872.7344711952
 20
-358.6607147108
 10
874.5660767669
 20
-365.0601364125
 10
876.6278045635
 20
-371.4793873199
 10
878.9144464818
 20
-377.902251848
 10
881.4202262658
 20
-384.3125052835
 10
884.1388140984
 20
-390.6939547701
 10
887.0633425906
 20
-397.0304802124
 10
890.1864241298
 20
-403.3060749972
 10
893.5001695409
 20
-409.5048864275
 10
896.9962080154
 20
-415.6112557676
 10
900.6657082567
 20
-421.6097577987
 10
904.4994007887
 20
-427.4852397838
 10
908.4876013714
 20
-433.2228597458
 10
912.620235464
 20
-438.8081239585
 10
916.8868636741
 20
-444.2269235599
 10
921.2767081285
 20
-449.4655701918
 10
925.7786796992
 20
-454.5108305783
 10
930.3814060152
 20
-459.3499599537
 10
935.0732601905
 20
-463.9707342572
 10
939.8423901942
 20
-468.3614810119
 10
944.67674879
 20
-472.5111088105
 10
949.5641239684
 20
-476.409135333
 10
954.4921697958
 20
-480.045713826
 10
959.4484376005
 20
-483.4116579768
 10
964.42040742
 20
-486.4984651182
 10
969.395519627
 20
-489.2983377076
 10
974.3612066562
 20
-491.8042030237
 10
979.3049247514
 20
-494.0097310334
 10
984.2141856515
 20
-495.9093503813
 10
989.0765881374
 20
-497.4982624643
 10
993.8798493585
 20
-498.7724535525
 10
998.6118358601
 20
-499.7287049285
 10
1003.2605942334
 20
-500.3646010185
 10
1007.8143813116
 20
-500.6785354938
 10
1012.2616938331
 20
-500.6697153285
 10
1016.5912975006
 20
-500.3381628032
 10
1020.7922553594
 20
-499.6847154484
 10
1024.8539554255
 20
-498.7110239288
 10
1028.7661374919
 20
-497.4195478736
 10
1032.5189190472
 20
-495.8135496635
 10
1036.1028202395
 20
-493.8970861893
 10
1039.5087878233
 20
-491.6749986041
 10
1042.728218029
 20
-489.152900094
 10
1045.7529782964
 20
-486.3371616987
 10
1048.5754278186
 20
-483.2348962178
 10
1051.1884368432
 20
-479.853940243
 10
1053.5854046824
 20
-476.2028343627
 10
1055.7602763877
 20
-472.2908015872
 10
1057.7075580443
 20
-468.1277240507
 10
1059.4223306496
 20
-463.7241180484
 10
1060.9002625394
 20
-459.0911074713
 10
1062.1376203294
 20
-454.2403957062
 10
1063.1312783464
 20
-449.1842360719
 10
1063.878726524
 20
-443.9354008666
 10
1064.3780767432
 20
-438.5071491034
 10
1064.6280676022
 20
-432.9131930175
 10
1064.6280676022
 20
-427.1676634274
 10
1064.3780767432
 20
-421.2850740395
 10
1063.878726524
 20
-415.2802847851
 10
1063.1312783464
 20
-409.1684642831
 10
1062.1376203294
 20
-402.9650515224
 10
1060.9002625394
 20
-396.685716862
 10
1059.4223306496
 20
-390.3463224464
 10
1057.7075580443
 20
-383.9628821359
 10
1055.7602763877
 20
-377.5515210548
 10
1053.5854046824
 20
-371.1284348576
 10
1051.1884368432
 20
-364.7098488176
 10
1048.5754278186
 20
-358.31197684
 10
1045.7529782964
 20
-351.9509805047
 10
1042.728218029
 20
-345.6429282407
 10
1039.5087878233
 20
-339.4037547352
 10
1036.1028202395
 20
-333.2492206822
 10
1032.5189190472
 20
-327.1948729688
 10
1028.7661374919
 20
-321.2560054026
 10
1024.8539554255
 20
-315.4476200787
 10
1020.7922553594
 20
-309.7843894825
 10
1016.5912975006
 20
-304.2806194258
 10
1012.2616938331
 20
-298.9502129097
 10
1007.8143813116
 20
-293.8066350035
 10
1003.2605942334
 20
-288.8628788314
 10
998.6118358601
 20
-284.1314327505
 10
993.8798493585
 20
-279.6242488044
 10
989.0765881374
 20
-275.3527125309
 10
984.2141856515
 20
-271.3276142011
 10
979.3049247514
 20
-267.559121563
 10
974.3612066562
 20
-264.0567541559
 10
969.395519627
 20
-260.8293592639
 10
964.42040742
 20
-257.8850895666
 10
959.4484376005
 20
-255.2313825447
 10
954.4921697958
 20
-252.8749416926
 10
949.5641239684
 20
-250.8217195842
 10
944.67674879
 20
-249.0769028369
 10
939.8423901942
 20
-247.6448990092
 10
935.0732601905
 20
-246.529325467
 10
930.3814060152
 20
-245.733000246
 10
925.7786796992
 20
-245.2579349326
 10
921.2767081285
 20
-245.1053295832
 10
916.8868636741
 20
-245.2755696922
 10
912.620235464
 20
-245.7682252181
 10
908.4876013714
 20
-246.5820516705
 10
904.4994007887
 20
-247.7149932529
 10
900.6657082567
 20
-249.1641880568
 10
896.9962080154
 20
-250.9259752903
 10
893.5001695409
 20
-252.9959045258
 10
890.1864241298
 20
-255.3687469425
 10
887.0633425906
 20
-258.0385085345
 10
884.1388140984
 20
-260.9984452524
 10
881.4202262658
 20
-264.241080039
 10
878.9144464818
 20
-267.7582217176
 10
876.6278045635
 20
-271.5409856829
 10
874.5660767669
 20
-275.5798163449
 10
872.7344711952
 20
-279.8645112669
 10
871.1376146433
 20
-284.3842469375
 10
869.7795409091
 20
-289.1276061123
 10
868.663680605
 20
-294.0826066543
 10
867.7928524909
 20
-299.2367318021
 10
867.1692563541
 20
-304.5769617882
 10
866.7944674527
 20
-310.0898067282
 10
866.6694325358
 20
-315.7613406974
  0
LWPOLYLINE
  5
E5
330
1F
100
AcDbEntity
  8
0
  6
Continuous
 62
     7
370
    25
100
AcDbPolyline
 90
      114
 70
   128
 43
0.0
 10
884.629944778
 20
-326.1297237176
 10
884.7551811786
 20
-321.0015806966
 10
885.1305032819
 20
-316.0338833421
 10
885.7547509889
 20
-311.2419865221
 10
886.6259947856
 20
-306.6407017149
 10
887.7415417073
 20
-302.2442512283
 10
889.0979436625
 20
-298.0662242386
 10
890.6910080905
 20
-294.119534788
 10
892.5158109203
 20
-290.4163818673
 10
894.5667117911
 20
-286.96821171
 10
896.8373714858
 20
-283.7856824124
 10
899.3207715253
 20
-280.8786309903
 10
902.0092358625
 20
-278.2560429729
 10
904.8944546082
 20
-275.9260246295
 10
907.9675097166
 20
-273.8957779133
 10
911.2189025504
 20
-272.1715782006
 10
914.6385832408
 20
-270.7587548939
 10
918.2159817507
 20
-269.6616749489
 10
921.9400405462
 20
-268.8837293771
 10
925.7992487752
 20
-268.4273227634
 10
929.781677846
 20
-268.2938658348
 10
933.8750182988
 20
-268.4837710987
 10
938.0666178527
 20
-268.9964515691
 10
942.3435205137
 20
-269.8303225798
 10
946.6925066207
 20
-270.9828066835
 10
951.1001337071
 20
-272.4503416177
 10
955.5527780499
 20
-274.2283913162
 10
960.0366767808
 20
-276.3114599291
 10
964.5379704258
 20
-278.6931088108
 10
969.042745744
 20
-281.3659764211
 10
973.5370787332
 20
-284.3218010793
 10
978.0070776677
 20
-287.5514465009
 10
982.4389260369
 20
-291.0449300369
 10
986.8189252514
 20
-294.7914535299
 10
991.1335369848
 20
-298.7794366906
 10
995.3694250194
 20
-302.9965528914
 10
999.5134964681
 20
-307.4297672679
 10
1003.5529422435
 20
-312.0653770085
 10
1007.4752766501
 20
-316.8890537092
 10
1011.2683759772
 20
-321.8858876617
 10
1014.920515972
 20
-327.0404339386
 10
1018.4204080792
 20
-332.3367601328
 10
1021.7572343328
 20
-337.7584956035
 10
1024.9206807941
 20
-343.2888820771
 10
1027.9009694313
 20
-348.910825446
 10
1030.6888883432
 20
-354.6069486053
 10
1033.275820232
 20
-360.3596451648
 10
1035.6537690396
 20
-366.1511338691
 10
1037.8153846625
 20
-371.9635135586
 10
1039.7539856706
 20
-377.7788185007
 10
1041.4635799594
 20
-383.5790739211
 10
1042.9388832709
 20
-389.3463515626
 10
1044.1753355271
 20
-395.0628251007
 10
1045.1691149249
 20
-400.7108252432
 10
1045.9171497492
 20
-406.2728943452
 10
1046.4171278671
 20
-411.7318403701
 10
1046.667503875
 20
-417.0707900285
 10
1046.667503875
 20
-422.2732409328
 10
1046.4171278671
 20
-427.3231126056
 10
1045.9171497492
 20
-432.2047961829
 10
1045.1691149249
 20
-436.9032026605
 10
1044.1753355271
 20
-441.4038095332
 10
1042.9388832709
 20
-445.6927056831
 10
1041.4635799594
 20
-449.756634378
 10
1039.7539856706
 20
-453.5830342472
 10
1037.8153846625
 20
-457.160078108
 10
1035.6537690396
 20
-460.4767095228
 10
1033.275820232
 20
-463.522676974
 10
1030.6888883432
 20
-466.2885655506
 10
1027.9009694313
 20
-468.7658260498
 10
1024.9206807941
 20
-470.9468014011
 10
1021.7572343328
 20
-472.8247503349
 10
1018.4204080792
 20
-474.3938682185
 10
1014.920515972
 20
-475.6493049984
 10
1011.2683759772
 20
-476.5871801917
 10
1007.4752766501
 20
-477.2045948797
 10
1003.5529422435
 20
-477.4996406691
 10
999.5134964681
 20
-477.4714055902
 10
995.3694250194
 20
-477.1199769161
 10
991.1335369848
 20
-476.4464408926
 10
986.8189252514
 20
-475.452879381
 10
982.4389260369
 20
-474.142363423
 10
978.0070776677
 20
-472.5189437482
 10
973.5370787332
 20
-470.587638254
 10
969.042745744
 20
-468.3544164949
 10
964.5379704258
 20
-465.8261812313
 10
960.0366767808
 20
-463.0107470936
 10
955.5527780499
 20
-459.9168164274
 10
951.1001337071
 20
-456.553952395
 10
946.6925066207
 20
-452.9325494164
 10
942.3435205137
 20
-449.0638010408
 10
938.0666178527
 20
-444.9596653476
 10
933.8750182988
 20
-440.6328279851
 10
929.781677846
 20
-436.0966629595
 10
925.7992487752
 20
-431.3651912971
 10
921.9400405462
 20
-426.4530377056
 10
918.2159817506
 20
-421.3753853702
 10
914.6385832408
 20
-416.1479290233
 10
911.2189025504
 20
-410.786826433
 10
907.9675097166
 20
-405.30864846
 10
904.8944546082
 20
-399.7303278385
 10
902.0092358625
 20
-394.069106838
 10
899.3207715253
 20
-388.3424839681
 10
896.8373714858
 20
-382.5681598919
 10
894.5667117911
 20
-376.7639827142
 10
892.5158109203
 20
-370.9478928141
 10
890.6910080905
 20
-365.1378673921
 10
889.0979436625
 20
-359.3518649038
 10
887.7415417073
 20
-353.6077695514
 10
886.6259947856
 20
-347.9233360044
 10
885.7547509889
 20
-342.3161345212
 10
885.1305032819
 20
-336.8034966401
 10
884.7551811786
 20
-331.402461609
 10
884.629944778
 20
-326.1297237176
  0
LWPOLYLINE
  5
E6
330
1F
100
AcDbEntity
  8
0
  6
Continuous
 62
     7
370
    25
100
AcDbPolyline
 90
      126
 70
   128
 43
0.0
 10
626.2531269324
 20
-732.1745957484
 10
631.3520955834
 20
-729.3753860441
 10
636.6882536307
 20
-726.7276096285
 10
642.248121476
 20
-724.2379550147
 10
648.0176544105
 20
-721.9127112864
 10
653.9822780935
 20
-719.7577522109
 10
660.1269253677
 20
-717.7785214021
 10
666.4360743209
 20
-715.9800185685
 10
672.8937874952
 20
-714.3667868846
 10
679.4837521468
 20
-712.9429015134
 10
686.189321453
 20
-711.7119593132
 10
692.9935565638
 20
-710.6770697506
 10
699.8792693907
 20
-709.8408470466
 10
706.8290660256
 20
-709.2054035722
 10
713.825390679
 20
-708.7723445129
 10
720.8505700276
 20
-708.5427638133
 10
727.8868578587
 20
-708.5172414143
 10
734.9164798985
 20
-708.6958417877
 10
741.9216787118
 20
-709.0781137734
 10
748.8847585583
 20
-709.6630917192
 10
755.788130094
 20
-710.4492979201
 10
762.6143548034
 20
-711.4347463509
 10
769.3461890503
 20
-712.6169476833
 10
775.9666276372
 20
-713.9929155744
 10
782.4589467616
 20
-715.5591742096
 10
788.8067462621
 20
-717.3117670838
 10
794.9939910461
 20
-719.2462669952
 10
801.0050515963
 20
-721.3577872292
 10
806.8247434521
 20
-723.6409939025
 10
812.4383655669
 20
-726.0901194368
 10
817.8317374438
 20
-728.6989771285
 10
822.9912349576
 20
-731.4609767765
 10
827.9038247697
 20
-734.3691413302
 10
832.5570972518
 20
-737.4161245134
 10
836.9392978339
 20
-740.5942293822
 10
841.039356697
 20
-743.8954277678
 10
844.8469167364
 20
-747.3113805567
 10
848.3523597252
 20
-750.8334587556
 10
851.5468306101
 20
-754.4527652893
 10
854.4222598803
 20
-758.1601574754
 10
856.9713839521
 20
-761.9462701195
 10
859.1877635168
 20
-765.8015391725
 10
861.0657998071
 20
-769.7162258901
 10
862.6007487406
 20
-773.6804414339
 10
863.7887329029
 20
-777.6841718515
 10
864.626751343
 20
-781.7173033723
 10
865.1126871535
 20
-785.7696479561
 10
865.2453128184
 20
-789.8309690287
 10
865.0242933138
 20
-793.8910073407
 10
864.4501869541
 20
-797.9395068828
 10
863.5244439818
 20
-801.9662407941
 10
862.2494029041
 20
-805.9610371949
 10
860.6282845853
 20
-809.9138048831
 10
858.6651841109
 20
-813.8145588243
 10
856.3650604433
 20
-817.6534453755
 10
853.7337238943
 20
-821.4207671762
 10
850.7778214485
 20
-825.1070076445
 10
847.5048199719
 20
-828.7028550171
 10
843.9229873504
 20
-832.1992258714
 10
840.0413716041
 20
-835.5872880713
 10
835.8697780311
 20
-838.8584830775
 10
831.4187444389
 20
-842.0045475675
 10
826.6995145247
 20
-845.0175343095
 10
821.7240094727
 20
-847.8898322374
 10
816.5047978406
 20
-850.6141856774
 10
811.0550638099
 20
-853.1837126763
 10
805.3885738818
 20
-855.5919223857
 10
799.5196421015
 20
-857.8327314591
 10
793.4630939001
 20
-859.9004794183
 10
787.234228644
 20
-861.7899429523
 10
780.8487809874
 20
-863.4963491124
 10
774.3228811253
 20
-865.0153873685
 10
767.6730140471
 20
-866.3432204981
 10
760.9159778942
 20
-867.4764942796
 10
754.0688415263
 20
-868.4123459648
 10
747.1489014042
 20
-869.1484115114
 10
740.1736378971
 20
-869.6828315539
 10
733.160671126
 20
-870.0142561007
 10
726.1277164537
 20
-870.1418479449
 10
719.092539734
 20
-870.0652847782
 10
712.0729124339
 20
-869.7847600059
 10
705.0865667412
 20
-869.300982258
 10
698.1511507714
 20
-868.615173599
 10
691.2841839872
 20
-867.729066441
 10
684.5030129426
 20
-866.6448991677
 10
677.8247674642
 20
-865.3654104797
 10
671.2663173797
 20
-863.8938324765
 10
664.8442299032
 20
-862.2338824918
 10
658.574727785
 20
-860.3897537034
 10
652.4736483316
 20
-858.3661045405
 10
646.5564033992
 20
-856.1680469167
 10
640.8379404621
 20
-853.8011333162
 10
635.3327048538
 20
-851.2713427683
 10
630.0546032774
 20
-848.5850657434
 10
625.0169686755
 20
-845.7490880104
 10
620.2325265503
 20
-842.7705734951
 10
615.7133628178
 20
-839.6570461838
 10
611.4708932779
 20
-836.4163711167
 10
607.5158347768
 20
-833.0567345202
 10
603.8581781355
 20
-829.5866231279
 10
600.5071629121
 20
-826.0148027425
 10
597.471254062
 20
-822.3502960921
 10
594.7581205544
 20
-818.6023600386
 10
592.3746159999
 20
-814.7804621938
 10
590.3267613379
 20
-810.8942570033
 10
588.6197296271
 20
-806.9535613586
 10
587.2578329777
 20
-802.9683297991
 10
586.2445116587
 20
-798.9486293654
 10
585.582325408
 20
-794.9046141698
 10
585.2729469652
 20
-790.8464997456
 10
585.3171578473
 20
-786.784537242
 10
585.7148463738
 20
-782.7289875289
 10
586.4650079488
 20
-778.6900952767
 10
587.5657475992
 20
-774.6780630779
 10
589.014284761
 20
-770.703025674
 10
590.8069603038
 20
-766.7750243544
 10
592.9392457733
 20
-762.9039815914
 10
595.4057548317
 20
-759.0996759749
 10
598.2002568628
 20
-755.3717175112
 10
601.315692712
 20
-751.7295233468
 10
604.744192518
 20
-748.1822939803
 10
608.4770955927
 20
-744.7389900209
 10
612.504972299
 20
-741.4083095533
 10
616.8176478707
 20
-738.1986661654
 10
621.4042281151
 20
-735.118167695
 10
626.2531269324
 20
-732.1745957484
  0
LWPOLYLINE
  5
E7
330
1F
100
AcDbEntity
  8
0
  6
Continuous
 62
     7
370
    25
100
AcDbPolyline
 90
      114
 70
   128
 43
0.0
 10
644.2136391745
 20
-742.5429787686
 10
639.8354059896
 20
-745.2150738573
 10
635.7211784737
 20
-748.0235045236
 10
631.8836734684
 20
-750.9595900693
 10
628.3347524818
 20
-754.0142552221
 10
625.0853850252
 20
-757.1780581872
 10
622.1456147073
 20
-760.4412198308
 10
619.5245281896
 20
-763.7936539075
 10
617.2302271003
 20
-767.2249982355
 10
615.2698029926
 20
-770.7246467261
 10
613.6493154252
 20
-774.2817821665
 10
612.3737732321
 20
-777.8854096549
 10
611.4471190412
 20
-781.5243905851
 10
610.8722170876
 20
-785.1874770758
 10
610.6508443601
 20
-788.8633467364
 10
610.7836851093
 20
-792.5406376645
 10
611.2703287319
 20
-796.2079835645
 10
612.1092710405
 20
-799.8540488806
 10
613.2979189124
 20
-803.4675638337
 10
614.8325983052
 20
-807.0373592561
 10
616.7085656128
 20
-810.5524011149
 10
618.9200223278
 20
-814.001824617
 10
621.4601329642
 20
-817.3749677922
 10
624.3210461857
 20
-820.6614044481
 10
627.4939190732
 20
-823.8509763973
 10
630.9689444588
 20
-826.9338248559
 10
634.7353812379
 20
-829.9004209158
 10
638.7815875703
 20
-832.7415949987
 10
643.0950568643
 20
-835.4485651982
 10
647.6624564333
 20
-838.0129644247
 10
652.4696687071
 20
-840.4268662671
 10
657.5018348679
 20
-842.682809493
 10
662.7434007787
 20
-844.7738211114
 10
668.1781650595
 20
-846.693437925
 10
673.7893291653
 20
-848.4357265084
 10
679.5595493096
 20
-849.9953015474
 10
685.4709900725
 20
-851.3673424849
 10
691.5053795294
 20
-852.547608421
 10
697.6440657283
 20
-853.5324512213
 10
703.868074342
 20
-854.3188267932
 10
710.1581673164
 20
-854.9043044949
 10
716.4949023348
 20
-855.2870746482
 10
722.8586929123
 20
-855.4659541327
 10
729.2298689368
 20
-855.4403900421
 10
735.5887374685
 20
-855.2104613934
 10
741.9156436092
 20
-854.7768788831
 10
748.1910312544
 20
-854.1409826898
 10
754.3955035407
 20
-853.3047383321
 10
760.5098827998
 20
-852.2707305935
 10
766.5152698357
 20
-851.0421555326
 10
772.3931023414
 20
-849.6228106046
 10
778.1252122733
 20
-848.0170829232
 10
783.6938820082
 20
-846.2299357007
 10
789.081899107
 20
-844.2668929068
 10
794.2726095177
 20
-842.1340221943
 10
799.2499690518
 20
-839.8379161442
 10
803.9985929764
 20
-837.3856718888
 10
808.5038035668
 20
-834.7848691745
 10
812.7516754755
 20
-832.0435469336
 10
816.7290787738
 20
-829.1701784359
 10
820.4237195359
 20
-826.1736450988
 10
823.8241778392
 20
-823.0632090351
 10
826.9199430617
 20
-819.8484844245
 10
829.7014463706
 20
-816.5394077965
 10
832.1600902986
 20
-813.1462073173
 10
834.2882753183
 20
-809.6793711752
 10
836.0794233316
 20
-806.1496151619
 10
837.5279980027
 20
-802.567849551
 10
838.6295218703
 20
-798.9451453748
 10
839.3805901873
 20
-795.2927002043
 10
839.7788814445
 20
-791.6218035382
 10
839.8231645465
 20
-787.9438019077
 10
839.5133026168
 20
-784.270063805
 10
838.8502534208
 20
-780.6119445442
 10
837.8360664055
 20
-776.9807511622
 10
836.4738763651
 20
-773.3877074696
 10
834.7678937507
 20
-769.8439193586
 10
832.7233916568
 20
-766.3603404752
 10
830.3466895224
 20
-762.9477383621
 10
827.6451335975
 20
-759.6166611767
 10
824.6270742365
 20
-756.3774050879
 10
821.3018400882
 20
-753.2399824505
 10
817.6797092606
 20
-750.2140908582
 10
813.7718775525
 20
-747.3090831683
 10
809.5904238478
 20
-744.5339385933
 10
805.1482727804
 20
-741.8972349459
 10
800.4591547845
 20
-739.4071221261
 10
795.5375636551
 20
-737.0712969298
 10
790.3987117485
 20
-734.8969792588
 10
785.0584829614
 20
-732.8908898046
 10
779.5333836348
 20
-731.0592292746
 10
773.8404915342
 20
-729.4076592265
 10
767.9974030629
 20
-727.9412845688
 10
762.0221788724
 20
-726.6646377814
 10
755.9332880383
 20
-725.5816649065
 10
749.7495509731
 20
-724.695713351
 10
743.4900812539
 20
-724.0095215406
 10
737.1742265428
 20
-723.5252104547
 10
730.8215087847
 20
-723.2442770711
 10
724.4515638662
 20
-723.167589739
 10
718.084080922
 20
-723.2953854943
 10
711.738741477
 20
-723.6272693278
 10
705.4351586117
 20
-724.1622154056
 10
699.1928163395
 20
-724.8985702399
 10
693.0310093827
 20
-725.8340578002
 10
686.9687835335
 20
-726.965786548
 10
681.0248767845
 20
-728.2902583747
 10
675.2176614108
 20
-729.8033794137
 10
669.5650871825
 20
-731.5004726946
 10
664.0846258825
 20
-733.3762925993
 10
658.7932173025
 20
-735.425041076
 10
653.7072168833
 20
-737.6403855606
 10
648.8423451608
 20
-740.0154785503
 10
644.2136391745
 20
-742.5429787686
  0
LWPOLYLINE
  5
E8
330
1F
100
AcDbEntity
  8
0
  6
Continuous
 62
     1
370
    25
100
AcDbPolyline
 90
       17
 70
   128
 43
0.0
 10
824.2430256646
 20
-568.8664333713
 10
829.2169593988
 20
-571.5934384898
 10
834.1783285446
 20
-574.0247835427
 10
839.1146002531
 20
-576.1543267415
 10
844.0133050736
 20
-577.9766886752
 10
848.8620684524
 20
-579.4872658993
 10
853.6486419925
 20
-580.6822425648
 10
858.3609343937
 20
-581.5586000569
 10
862.9870419964
 20
-582.1141246204
 10
867.5152788514
 20
-582.3474129522
 10
871.9342062393
 20
-582.2578757456
 10
876.232661566
 20
-581.8457391795
 10
880.3997865604
 20
-581.1120443464
 10
884.425054703
 20
-580.0586446233
 10
888.2982978172
 20
-578.6882009893
 10
892.0097317548
 20
-577.004175304
 10
894.2373369492
 20
-575.7975604406
  0
LWPOLYLINE
  5
E9
330
1F
100
AcDbEntity
  8
0
  6
Continuous
 62
     1
370
    25
100
AcDbPolyline
 90
       48
 70
   128
 43
0.0
 10
754.2487143801
 20
-333.303878974
 10
751.2329519549
 20
-335.2017493751
 10
747.9661062101
 20
-337.6494130958
 10
744.8919425838
 20
-340.3923796626
 10
742.01822668
 20
-343.4237201039
 10
739.3522177547
 20
-346.7357769906
 10
736.9006503775
 20
-350.3201837798
 10
734.6697174207
 20
-354.1678859486
 10
732.6650544143
 20
-358.2691638675
 10
730.8917253112
 20
-362.6136573526
 10
729.3542096945
 20
-367.1903918362
 10
728.0563914622
 20
-371.9878060898
 10
727.0015490158
 20
-376.9937814287
 10
726.1923469787
 20
-382.1956723247
 10
725.6308294656
 20
-387.5803383499
 10
725.3184149185
 20
-393.1341773707
 10
725.2558925236
 20
-398.8431599076
 10
725.4434202179
 20
-404.6928645753
 10
725.8805242901
 20
-410.6685145121
 10
726.5661005775
 20
-416.7550147077
 10
727.4984172549
 20
-422.9369901344
 10
728.6751192094
 20
-429.1988245856
 10
730.0932339897
 20
-435.5247001242
 10
731.7491793148
 20
-441.8986370395
 10
733.6387721232
 20
-448.3045342136
 10
735.7572391394
 20
-454.7262097944
 10
738.0992289319
 20
-461.147442072
 10
740.6588254312
 20
-467.5520104563
 10
743.4295628743
 20
-473.9237364519
 10
746.4044421381
 20
-480.2465245259
 10
749.5759484193
 20
-486.5044027668
 10
752.9360702179
 20
-492.681563231
 10
756.4763195745
 20
-498.7624018753
 10
760.187753512
 20
-504.7315579733
 10
764.0609966262
 20
-510.5739529188
 10
768.0862647689
 20
-516.2748283151
 10
772.2533897633
 20
-521.8197832561
 10
776.55184509
 20
-527.1948107044
 10
780.9707724779
 20
-532.3863328743
 10
785.4990093329
 20
-537.3812355301
 10
790.1251169356
 20
-542.1669011142
 10
794.8374093368
 20
-546.7312406201
 10
799.6239828769
 20
-551.06272413
 10
804.4727462557
 20
-555.1504099406
 10
809.3714510761
 20
-558.9839722029
 10
814.3077227846
 20
-562.5537270058
 10
819.2690919305
 20
-565.8506568389
 10
824.2430256646
 20
-568.8664333713
  0
LWPOLYLINE
  5
EA
330
1F
100
AcDbEntity
  8
0
  6
Continuous
 62
     1
370
    25
100
AcDbPolyline
 90
       17
 70
   128
 43
0.0
 10
824.2430256646
 20
-568.8664333713
 10
829.0919244819
 20
-571.8100053178
 10
833.6785047263
 20
-574.8905037883
 10
837.9911802981
 20
-578.1001471762
 10
842.0190570044
 20
-581.4308276438
 10
845.7519600791
 20
-584.8741316031
 10
849.1804598851
 20
-588.4213609696
 10
852.2958957343
 20
-592.063555134
 10
855.0903977654
 20
-595.7915135978
 10
857.5569068237
 20
-599.5958192142
 10
859.6891922933
 20
-603.4668619772
 10
861.481867836
 20
-607.3948632968
 10
862.9304049979
 20
-611.3699007007
 10
864.0311446483
 20
-615.3819328996
 10
864.7813062233
 20
-619.4208251517
 10
865.1789947497
 20
-623.4763748649
 10
865.2480762985
 20
-626.0150011989
  0
LWPOLYLINE
  5
EB
330
1F
100
AcDbEntity
  8
0
  6
Continuous
 62
     1
370
    25
100
AcDbPolyline
 90
       48
 70
   128
 43
0.0
 10
585.2480762985
 20
-626.0150011989
 10
585.3834654436
 20
-622.4614855789
 10
585.8694012541
 20
-618.4091409951
 10
586.7074196942
 20
-614.3760094744
 10
587.8954038565
 20
-610.3722790568
 10
589.4303527899
 20
-606.4080635129
 10
591.3083890803
 20
-602.4933767953
 10
593.5247686449
 20
-598.6381077424
 10
596.0738927167
 20
-594.8519950983
 10
598.949321987
 20
-591.1446029122
 10
602.1437928718
 20
-587.5252963784
 10
605.6492358606
 20
-584.0032181795
 10
609.4567959001
 20
-580.5872653907
 10
613.5568547631
 20
-577.286067005
 10
617.9390553452
 20
-574.1079621362
 10
622.5923278274
 20
-571.060978953
 10
627.5049176394
 20
-568.1528143994
 10
632.6644151532
 20
-565.3908147513
 10
638.0577870302
 20
-562.7819570597
 10
643.6714091449
 20
-560.3328315254
 10
649.4911010008
 20
-558.0496248521
 10
655.502161551
 20
-555.9381046181
 10
661.689406335
 20
-554.0036047066
 10
668.0372058354
 20
-552.2510118324
 10
674.5295249599
 20
-550.6847531972
 10
681.1499635468
 20
-549.3087853062
 10
687.8817977937
 20
-548.1265839737
 10
694.708022503
 20
-547.1411355429
 10
701.6113940387
 20
-546.3549293421
 10
708.5744738852
 20
-545.7699513963
 10
715.5796726985
 20
-545.3876794106
 10
722.6092947384
 20
-545.2090790372
 10
729.6455825695
 20
-545.2346014362
 10
736.6707619181
 20
-545.4641821357
 10
743.6670865714
 20
-545.8972411951
 10
750.6168832063
 20
-546.5326846694
 10
757.5025960332
 20
-547.3689073735
 10
764.306831144
 20
-548.403796936
 10
771.0124004502
 20
-549.6347391363
 10
777.6023651018
 20
-551.0586245074
 10
784.0600782762
 20
-552.6718561914
 10
790.3692272294
 20
-554.4703590249
 10
796.5138745036
 20
-556.4495898338
 10
802.4784981865
 20
-558.6045489092
 10
808.2480311211
 20
-560.9297926376
 10
813.8078989664
 20
-563.4194472513
 10
819.1440570137
 20
-566.0672236669
 10
824.2430256646
 20
-568.8664333713
  0
ENDSEC
  0
SECTION
  2
OBJECTS
  0
DICTIONARY
  5
C
330
0
100
AcDbDictionary
281
     1
  3
ACAD_GROUP
350
D
  3
ACAD_LAYOUT
350
1A
  3
ACAD_MLINESTYLE
350
17
  3
ACAD_PLOTSETTINGS
350
19
  3
ACAD_PLOTSTYLENAME
350
E
  3
ACAD_SCALELIST
350
47
  3
DWGPROPS
350
EC
  0
DICTIONARY
  5
D
102
{ACAD_REACTORS
330
C
102
}
330
C
100
AcDbDictionary
281
     1
  0
DICTIONARY
  5
1A
102
{ACAD_REACTORS
330
C
102
}
330
C
100
AcDbDictionary
281
     1
  3
Layout1
350
1E
  3
Layout2
350
26
  3
Model
350
22
  0
DICTIONARY
  5
17
102
{ACAD_REACTORS
330
C
102
}
330
C
100
AcDbDictionary
281
     1
  3
Standard
350
18
  0
DICTIONARY
  5
19
102
{ACAD_REACTORS
330
C
102
}
330
C
100
AcDbDictionary
281
     1
  0
ACDBDICTIONARYWDFLT
  5
E
102
{ACAD_REACTORS
330
C
102
}
330
C
100
AcDbDictionary
281
     1
  3
Normal
350
F
100
AcDbDictionaryWithDefault
340
F
  0
DICTIONARY
  5
47
102
{ACAD_REACTORS
330
C
102
}
330
C
100
AcDbDictionary
281
     1
  3
A0
350
48
  3
A1
350
49
  3
A2
350
4A
  3
A3
350
4B
  3
A4
350
4C
  3
A5
350
4D
  3
A6
350
4E
  3
A7
350
4F
  3
A8
350
50
  3
A9
350
51
  3
B0
350
52
  3
B1
350
53
  3
B2
350
54
  3
B3
350
55
  3
B4
350
56
  3
B5
350
57
  3
B6
350
58
  3
B7
350
59
  3
B8
350
5A
  3
B9
350
5B
  3
C0
350
5C
  3
C1
350
5D
  3
C2
350
5E
  3
C3
350
5F
  3
C4
350
60
  3
C5
350
61
  3
C6
350
62
  3
C7
350
63
  3
C8
350
64
  3
C9
350
65
  3
D0
350
66
  3
D1
350
67
  3
D2
350
68
  0
XRECORD
  5
EC
102
{ACAD_REACTORS
330
C
102
}
330
C
100
AcDbXrecord
280
     1
  1
DWGPROPS COOKIE
  2

  3

  4

  6

  7

  8
b.kav
  9

300
=
301
=
302
=
303
=
304
=
305
=
306
=
307
=
308
=
309
=
 40
0.0
 41
2459935.574430417
 42
2459935.57443059
  1

 90
        0
  0
LAYOUT
  5
1E
102
{ACAD_REACTORS
330
1A
102
}
330
1A
100
AcDbPlotSettings
  1

  2
none_device
  4

  6

 40
0.0
 41
0.0
 42
0.0
 43
0.0
 44
0.0
 45
0.0
 46
0.0
 47
0.0
 48
0.0
 49
0.0
140
0.0
141
0.0
142
1.0
143
1.0
 70
   688
 72
     1
 73
     0
 74
     5
  7

 75
    16
147
1.0
148
0.0
149
0.0
100
AcDbLayout
  1
Layout1
 70
     1
 71
     1
 10
0.0
 20
0.0
 11
420.0
 21
297.0
 12
0.0
 22
0.0
 32
0.0
 14
1.0000000000E+20
 24
1.0000000000E+20
 34
1.0000000000E+20
 15
-1.0000000000E+20
 25
-1.0000000000E+20
 35
-1.0000000000E+20
146
0.0
 13
0.0
 23
0.0
 33
0.0
 16
1.0
 26
0.0
 36
0.0
 17
0.0
 27
1.0
 37
0.0
 76
     0
330
1B
  0
LAYOUT
  5
26
102
{ACAD_REACTORS
330
1A
102
}
330
1A
100
AcDbPlotSettings
  1

  2
none_device
  4

  6

 40
0.0
 41
0.0
 42
0.0
 43
0.0
 44
0.0
 45
0.0
 46
0.0
 47
0.0
 48
0.0
 49
0.0
140
0.0
141
0.0
142
1.0
143
1.0
 70
   688
 72
     1
 73
     0
 74
     5
  7

 75
    16
147
1.0
148
0.0
149
0.0
100
AcDbLayout
  1
Layout2
 70
     1
 71
     2
 10
0.0
 20
0.0
 11
0.0
 21
0.0
 12
0.0
 22
0.0
 32
0.0
 14
0.0
 24
0.0
 34
0.0
 15
0.0
 25
0.0
 35
0.0
146
0.0
 13
0.0
 23
0.0
 33
0.0
 16
1.0
 26
0.0
 36
0.0
 17
0.0
 27
1.0
 37
0.0
 76
     0
330
23
  0
LAYOUT
  5
22
102
{ACAD_REACTORS
330
1A
102
}
330
1A
100
AcDbPlotSettings
  1

  2
none_device
  4
Letter_(8.50_x_11.00_Inches)
  6

 40
6.35
 41
6.35
 42
6.35000508
 43
6.35000508
 44
215.9
 45
279.4
 46
0.0
 47
0.0
 48
0.0
 49
0.0
140
0.0
141
0.0
142
1.0
143
1.0
 70
  1712
 72
     1
 73
     0
 74
     0
  7

 75
     0
147
1.0
148
0.0
149
0.0
100
AcDbLayout
  1
Model
 70
     1
 71
     0
 10
0.0
 20
0.0
 11
279.4
 21
215.9
 12
0.0
 22
0.0
 32
0.0
 14
0.0
 24
0.0
 34
0.0
 15
279.4
 25
215.9
 35
0.0
146
0.0
 13
0.0
 23
0.0
 33
0.0
 16
1.0
 26
0.0
 36
0.0
 17
0.0
 27
1.0
 37
0.0
 76
     0
330
1F
331
29
  0
MLINESTYLE
  5
18
102
{ACAD_REACTORS
330
17
102
}
330
17
100
AcDbMlineStyle
  2
Standard
 70
     0
  3

 62
   256
 51
90.0
 52
90.0
 71
     2
 49
0.5
 62
   256
  6
BYLAYER
 49
-0.5
 62
   256
  6
BYLAYER
  0
ACDBPLACEHOLDER
  5
F
102
{ACAD_REACTORS
330
E
102
}
330
E
  0
SCALE
  5
48
102
{ACAD_REACTORS
330
47
102
}
330
47
100
AcDbScale
 70
     0
300
1:1
140
1.0
141
1.0
290
     1
  0
SCALE
  5
49
102
{ACAD_REACTORS
330
47
102
}
330
47
100
AcDbScale
 70
     0
300
1:2
140
1.0
141
2.0
290
     0
  0
SCALE
  5
4A
102
{ACAD_REACTORS
330
47
102
}
330
47
100
AcDbScale
 70
     0
300
1:4
140
1.0
141
4.0
290
     0
  0
SCALE
  5
4B
102
{ACAD_REACTORS
330
47
102
}
330
47
100
AcDbScale
 70
     0
300
1:5
140
1.0
141
5.0
290
     0
  0
SCALE
  5
4C
102
{ACAD_REACTORS
330
47
102
}
330
47
100
AcDbScale
 70
     0
300
1:8
140
1.0
141
8.0
290
     0
  0
SCALE
  5
4D
102
{ACAD_REACTORS
330
47
102
}
330
47
100
AcDbScale
 70
     0
300
1:10
140
1.0
141
10.0
290
     0
  0
SCALE
  5
4E
102
{ACAD_REACTORS
330
47
102
}
330
47
100
AcDbScale
 70
     0
300
1:16
140
1.0
141
16.0
290
     0
  0
SCALE
  5
4F
102
{ACAD_REACTORS
330
47
102
}
330
47
100
AcDbScale
 70
     0
300
1:20
140
1.0
141
20.0
290
     0
  0
SCALE
  5
50
102
{ACAD_REACTORS
330
47
102
}
330
47
100
AcDbScale
 70
     0
300
1:30
140
1.0
141
30.0
290
     0
  0
SCALE
  5
51
102
{ACAD_REACTORS
330
47
102
}
330
47
100
AcDbScale
 70
     0
300
1:40
140
1.0
141
40.0
290
     0
  0
SCALE
  5
52
102
{ACAD_REACTORS
330
47
102
}
330
47
100
AcDbScale
 70
     0
300
1:50
140
1.0
141
50.0
290
     0
  0
SCALE
  5
53
102
{ACAD_REACTORS
330
47
102
}
330
47
100
AcDbScale
 70
     0
300
1:100
140
1.0
141
100.0
290
     0
  0
SCALE
  5
54
102
{ACAD_REACTORS
330
47
102
}
330
47
100
AcDbScale
 70
     0
300
2:1
140
2.0
141
1.0
290
     0
  0
SCALE
  5
55
102
{ACAD_REACTORS
330
47
102
}
330
47
100
AcDbScale
 70
     0
300
4:1
140
4.0
141
1.0
290
     0
  0
SCALE
  5
56
102
{ACAD_REACTORS
330
47
102
}
330
47
100
AcDbScale
 70
     0
300
8:1
140
8.0
141
1.0
290
     0
  0
SCALE
  5
57
102
{ACAD_REACTORS
330
47
102
}
330
47
100
AcDbScale
 70
     0
300
10:1
140
10.0
141
1.0
290
     0
  0
SCALE
  5
58
102
{ACAD_REACTORS
330
47
102
}
330
47
100
AcDbScale
 70
     0
300
100:1
140
100.0
141
1.0
290
     0
  0
SCALE
  5
59
102
{ACAD_REACTORS
330
47
102
}
330
47
100
AcDbScale
 70
     0
300
1/128" = 1'-0"
140
0.0078125
141
12.0
290
     0
  0
SCALE
  5
5A
102
{ACAD_REACTORS
330
47
102
}
330
47
100
AcDbScale
 70
     0
300
1/64" = 1'-0"
140
0.015625
141
12.0
290
     0
  0
SCALE
  5
5B
102
{ACAD_REACTORS
330
47
102
}
330
47
100
AcDbScale
 70
     0
300
1/32" = 1'-0"
140
0.03125
141
12.0
290
     0
  0
SCALE
  5
5C
102
{ACAD_REACTORS
330
47
102
}
330
47
100
AcDbScale
 70
     0
300
1/16" = 1'-0"
140
0.0625
141
12.0
290
     0
  0
SCALE
  5
5D
102
{ACAD_REACTORS
330
47
102
}
330
47
100
AcDbScale
 70
     0
300
3/32" = 1'-0"
140
0.09375
141
12.0
290
     0
  0
SCALE
  5
5E
102
{ACAD_REACTORS
330
47
102
}
330
47
100
AcDbScale
 70
     0
300
1/8" = 1'-0"
140
0.125
141
12.0
290
     0
  0
SCALE
  5
5F
102
{ACAD_REACTORS
330
47
102
}
330
47
100
AcDbScale
 70
     0
300
3/16" = 1'-0"
140
0.1875
141
12.0
290
     0
  0
SCALE
  5
60
102
{ACAD_REACTORS
330
47
102
}
330
47
100
AcDbScale
 70
     0
300
1/4" = 1'-0"
140
0.25
141
12.0
290
     0
  0
SCALE
  5
61
102
{ACAD_REACTORS
330
47
102
}
330
47
100
AcDbScale
 70
     0
300
3/8" = 1'-0"
140
0.375
141
12.0
290
     0
  0
SCALE
  5
62
102
{ACAD_REACTORS
330
47
102
}
330
47
100
AcDbScale
 70
     0
300
1/2" = 1'-0"
140
0.5
141
12.0
290
     0
  0
SCALE
  5
63
102
{ACAD_REACTORS
330
47
102
}
330
47
100
AcDbScale
 70
     0
300
3/4" = 1'-0"
140
0.75
141
12.0
290
     0
  0
SCALE
  5
64
102
{ACAD_REACTORS
330
47
102
}
330
47
100
AcDbScale
 70
     0
300
1" = 1'-0"
140
1.0
141
12.0
290
     0
  0
SCALE
  5
65
102
{ACAD_REACTORS
330
47
102
}
330
47
100
AcDbScale
 70
     0
300
1-1/2" = 1'-0"
140
1.5
141
12.0
290
     0
  0
SCALE
  5
66
102
{ACAD_REACTORS
330
47
102
}
330
47
100
AcDbScale
 70
     0
300
3" = 1'-0"
140
3.0
141
12.0
290
     0
  0
SCALE
  5
67
102
{ACAD_REACTORS
330
47
102
}
330
47
100
AcDbScale
 70
     0
300
6" = 1'-0"
140
6.0
141
12.0
290
     0
  0
SCALE
  5
68
102
{ACAD_REACTORS
330
47
102
}
330
47
100
AcDbScale
 70
     0
300
1'-0" = 1'-0"
140
12.0
141
12.0
290
     0
  0
ENDSEC
  0
EOF
